ISO-10303-21;
HEADER;
FILE_DESCRIPTION (( 'STEP AP214' ),
    '1' );
FILE_NAME ('437019_Industrilas.step',
    '2025-09-03T13:05:31',
    ( '' ),
    ( '' ),
    'SwSTEP 2.0',
    'SolidWorks 2010',
    '' );
FILE_SCHEMA (( 'AUTOMOTIVE_DESIGN' ));
ENDSEC;

DATA;
#1 = ORIENTED_EDGE ( 'NONE', *, *, #275, .T. ) ;
#2 = ORIENTED_EDGE ( 'NONE', *, *, #271, .T. ) ;
#3 = ORIENTED_EDGE ( 'NONE', *, *, #278, .F. ) ;
#4 = ORIENTED_EDGE ( 'NONE', *, *, #286, .T. ) ;
#5 = EDGE_LOOP ( 'NONE', ( #111, #104, #2, #66 ) ) ;
#6 = CIRCLE ( 'NONE', #250, 0.8000000000000019300 ) ;
#7 = ORIENTED_EDGE ( 'NONE', *, *, #287, .F. ) ;
#8 = ORIENTED_EDGE ( 'NONE', *, *, #287, .T. ) ;
#9 = CLOSED_SHELL ( 'NONE', ( #142, #144, #143, #136, #137, #135, #134, #141, #140, #138, #139 ) ) ;
#10 = ORIENTED_EDGE ( 'NONE', *, *, #285, .T. ) ;
#11 = ORIENTED_EDGE ( 'NONE', *, *, #275, .F. ) ;
#12 = ORIENTED_EDGE ( 'NONE', *, *, #293, .T. ) ;
#13 = ORIENTED_EDGE ( 'NONE', *, *, #284, .T. ) ;
#14 = ORIENTED_EDGE ( 'NONE', *, *, #290, .T. ) ;
#15 = CIRCLE ( 'NONE', #230, 0.4000000000000010200 ) ;
#16 = ORIENTED_EDGE ( 'NONE', *, *, #280, .F. ) ;
#17 = LINE ( 'NONE', #172, #28 ) ;
#18 = CIRCLE ( 'NONE', #225, 0.8000000000000014900 ) ;
#19 = CIRCLE ( 'NONE', #236, 0.8000000000000019300 ) ;
#20 = VECTOR ( 'NONE', #169, 1000.000000000000000 ) ;
#21 = LINE ( 'NONE', #163, #41 ) ;
#22 = CIRCLE ( 'NONE', #235, 0.8000000000000014900 ) ;
#23 = LINE ( 'NONE', #168, #20 ) ;
#24 = VECTOR ( 'NONE', #158, 1000.000000000000000 ) ;
#25 = EDGE_LOOP ( 'NONE', ( #132, #106, #123, #7 ) ) ;
#26 = EDGE_LOOP ( 'NONE', ( #10, #93, #94, #95, #46, #47, #48, #58, #59 ) ) ;
#27 = CIRCLE ( 'NONE', #228, 2.729629629629626700 ) ;
#28 = VECTOR ( 'NONE', #175, 1000.000000000000000 ) ;
#29 = CIRCLE ( 'NONE', #224, 0.4000000000000010200 ) ;
#30 = LINE ( 'NONE', #359, #69 ) ;
#31 = CIRCLE ( 'NONE', #247, 0.4000000000000010200 ) ;
#32 = LINE ( 'NONE', #373, #108 ) ;
#33 = CIRCLE ( 'NONE', #229, 2.899999999999999000 ) ;
#34 = CIRCLE ( 'NONE', #240, 2.899999999999999000 ) ;
#35 = CIRCLE ( 'NONE', #252, 2.899999999999999000 ) ;
#36 = CIRCLE ( 'NONE', #254, 2.729629629629626700 ) ;
#37 = CIRCLE ( 'NONE', #251, 0.4000000000000010200 ) ;
#38 = LINE ( 'NONE', #170, #42 ) ;
#39 = CIRCLE ( 'NONE', #227, 2.899999999999999000 ) ;
#40 = CIRCLE ( 'NONE', #232, 0.4000000000000010200 ) ;
#41 = VECTOR ( 'NONE', #171, 1000.000000000000000 ) ;
#42 = VECTOR ( 'NONE', #173, 1000.000000000000000 ) ;
#43 = FACE_OUTER_BOUND ( 'NONE', #57, .T. ) ;
#44 = CYLINDRICAL_SURFACE ( 'NONE', #238, 0.8000000000000014900 ) ;
#45 = CYLINDRICAL_SURFACE ( 'NONE', #256, 0.4000000000000010200 ) ;
#46 = ORIENTED_EDGE ( 'NONE', *, *, #282, .T. ) ;
#47 = ORIENTED_EDGE ( 'NONE', *, *, #277, .T. ) ;
#48 = ORIENTED_EDGE ( 'NONE', *, *, #281, .T. ) ;
#49 = ORIENTED_EDGE ( 'NONE', *, *, #285, .F. ) ;
#50 = ORIENTED_EDGE ( 'NONE', *, *, #292, .F. ) ;
#51 = ORIENTED_EDGE ( 'NONE', *, *, #288, .F. ) ;
#52 = ORIENTED_EDGE ( 'NONE', *, *, #223, .T. ) ;
#53 = CYLINDRICAL_SURFACE ( 'NONE', #243, 2.899999999999999000 ) ;
#54 = FACE_OUTER_BOUND ( 'NONE', #112, .T. ) ;
#55 = ORIENTED_EDGE ( 'NONE', *, *, #274, .F. ) ;
#56 = EDGE_LOOP ( 'NONE', ( #11, #14, #82, #55 ) ) ;
#57 = EDGE_LOOP ( 'NONE', ( #129, #61, #16, #124 ) ) ;
#58 = ORIENTED_EDGE ( 'NONE', *, *, #292, .T. ) ;
#59 = ORIENTED_EDGE ( 'NONE', *, *, #280, .T. ) ;
#60 = ORIENTED_EDGE ( 'NONE', *, *, #288, .T. ) ;
#61 = ORIENTED_EDGE ( 'NONE', *, *, #220, .T. ) ;
#62 = FACE_OUTER_BOUND ( 'NONE', #76, .T. ) ;
#63 = SURFACE_STYLE_FILL_AREA ( #347 ) ;
#64 = CYLINDRICAL_SURFACE ( 'NONE', #242, 0.4000000000000010200 ) ;
#65 =( GEOMETRIC_REPRESENTATION_CONTEXT ( 3 ) GLOBAL_UNCERTAINTY_ASSIGNED_CONTEXT ( ( #265 ) ) GLOBAL_UNIT_ASSIGNED_CONTEXT ( ( #355, #356, #357 ) ) REPRESENTATION_CONTEXT ( 'NONE', 'WORKASPACE' ) );
#66 = ORIENTED_EDGE ( 'NONE', *, *, #281, .F. ) ;
#67 = ORIENTED_EDGE ( 'NONE', *, *, #282, .F. ) ;
#68 = ORIENTED_EDGE ( 'NONE', *, *, #276, .T. ) ;
#69 = VECTOR ( 'NONE', #366, 1000.000000000000000 ) ;
#70 = LINE ( 'NONE', #350, #87 ) ;
#71 = ORIENTED_EDGE ( 'NONE', *, *, #273, .T. ) ;
#72 = CYLINDRICAL_SURFACE ( 'NONE', #222, 0.8000000000000019300 ) ;
#73 = FACE_OUTER_BOUND ( 'NONE', #26, .T. ) ;
#74 = PRESENTATION_STYLE_ASSIGNMENT (( #354 ) ) ;
#75 = ORIENTED_EDGE ( 'NONE', *, *, #278, .T. ) ;
#76 = EDGE_LOOP ( 'NONE', ( #75, #12, #71, #13, #83, #68, #4, #122, #1 ) ) ;
#77 = CYLINDRICAL_SURFACE ( 'NONE', #237, 2.899999999999999000 ) ;
#78 = FACE_OUTER_BOUND ( 'NONE', #91, .T. ) ;
#79 = CYLINDRICAL_SURFACE ( 'NONE', #244, 2.729629629629626700 ) ;
#80 = LINE ( 'NONE', #348, #92 ) ;
#81 = CYLINDRICAL_SURFACE ( 'NONE', #255, 2.729629629629626700 ) ;
#82 = ORIENTED_EDGE ( 'NONE', *, *, #291, .F. ) ;
#83 = ORIENTED_EDGE ( 'NONE', *, *, #279, .T. ) ;
#84 = FACE_OUTER_BOUND ( 'NONE', #56, .T. ) ;
#85 = CYLINDRICAL_SURFACE ( 'NONE', #233, 0.4000000000000010200 ) ;
#86 = FACE_OUTER_BOUND ( 'NONE', #127, .T. ) ;
#87 = VECTOR ( 'NONE', #352, 1000.000000000000000 ) ;
#88 = FACE_OUTER_BOUND ( 'NONE', #25, .T. ) ;
#89 = FACE_OUTER_BOUND ( 'NONE', #96, .T. ) ;
#90 = COLOUR_RGB ( '',0.1960784313725490200, 0.1960784313725490200, 0.1960784313725490200 ) ;
#91 = EDGE_LOOP ( 'NONE', ( #3, #114, #130, #51 ) ) ;
#92 = VECTOR ( 'NONE', #349, 1000.000000000000000 ) ;
#93 = ORIENTED_EDGE ( 'NONE', *, *, #272, .T. ) ;
#94 = ORIENTED_EDGE ( 'NONE', *, *, #291, .T. ) ;
#95 = ORIENTED_EDGE ( 'NONE', *, *, #269, .T. ) ;
#96 = EDGE_LOOP ( 'NONE', ( #113, #60, #49, #131 ) ) ;
#97 = COLOUR_RGB ( '',0.1960784313725490200, 0.1960784313725490200, 0.1960784313725490200 ) ;
#98 = PRESENTATION_STYLE_ASSIGNMENT (( #208 ) ) ;
#99 = SHAPE_DEFINITION_REPRESENTATION ( #146, #267 ) ;
#100 = ORIENTED_EDGE ( 'NONE', *, *, #290, .F. ) ;
#101 = SURFACE_STYLE_FILL_AREA ( #206 ) ;
#102 = CIRCLE ( 'NONE', #239, 2.729629629629626700 ) ;
#103 = CIRCLE ( 'NONE', #249, 2.729629629629626700 ) ;
#104 = ORIENTED_EDGE ( 'NONE', *, *, #279, .F. ) ;
#105 = FACE_OUTER_BOUND ( 'NONE', #126, .T. ) ;
#106 = ORIENTED_EDGE ( 'NONE', *, *, #289, .T. ) ;
#107 = ORIENTED_EDGE ( 'NONE', *, *, #269, .F. ) ;
#108 = VECTOR ( 'NONE', #374, 1000.000000000000000 ) ;
#109 = ORIENTED_EDGE ( 'NONE', *, *, #284, .F. ) ;
#110 = ORIENTED_EDGE ( 'NONE', *, *, #223, .F. ) ;
#111 = ORIENTED_EDGE ( 'NONE', *, *, #289, .F. ) ;
#112 = EDGE_LOOP ( 'NONE', ( #109, #119, #50, #118 ) ) ;
#113 = ORIENTED_EDGE ( 'NONE', *, *, #293, .F. ) ;
#114 = ORIENTED_EDGE ( 'NONE', *, *, #274, .T. ) ;
#115 = ORIENTED_EDGE ( 'NONE', *, *, #286, .F. ) ;
#116 =( GEOMETRIC_REPRESENTATION_CONTEXT ( 3 ) GLOBAL_UNCERTAINTY_ASSIGNED_CONTEXT ( ( #266 ) ) GLOBAL_UNIT_ASSIGNED_CONTEXT ( ( #202, #203, #204 ) ) REPRESENTATION_CONTEXT ( 'NONE', 'WORKASPACE' ) );
#117 =( GEOMETRIC_REPRESENTATION_CONTEXT ( 3 ) GLOBAL_UNCERTAINTY_ASSIGNED_CONTEXT ( ( #268 ) ) GLOBAL_UNIT_ASSIGNED_CONTEXT ( ( #209, #210, #211 ) ) REPRESENTATION_CONTEXT ( 'NONE', 'WORKASPACE' ) );
#118 = ORIENTED_EDGE ( 'NONE', *, *, #271, .F. ) ;
#119 = ORIENTED_EDGE ( 'NONE', *, *, #283, .T. ) ;
#120 = FACE_OUTER_BOUND ( 'NONE', #5, .T. ) ;
#121 = LINE ( 'NONE', #157, #24 ) ;
#122 = ORIENTED_EDGE ( 'NONE', *, *, #270, .T. ) ;
#123 = ORIENTED_EDGE ( 'NONE', *, *, #277, .F. ) ;
#124 = ORIENTED_EDGE ( 'NONE', *, *, #283, .F. ) ;
#125 = CIRCLE ( 'NONE', #253, 0.4000000000000010200 ) ;
#126 = EDGE_LOOP ( 'NONE', ( #115, #8, #67, #110 ) ) ;
#127 = EDGE_LOOP ( 'NONE', ( #128, #52, #107, #100 ) ) ;
#128 = ORIENTED_EDGE ( 'NONE', *, *, #270, .F. ) ;
#129 = ORIENTED_EDGE ( 'NONE', *, *, #273, .F. ) ;
#130 = ORIENTED_EDGE ( 'NONE', *, *, #272, .F. ) ;
#131 = ORIENTED_EDGE ( 'NONE', *, *, #220, .F. ) ;
#132 = ORIENTED_EDGE ( 'NONE', *, *, #276, .F. ) ;
#133 = PRODUCT ( '437019_Industrilas', '437019_Industrilas', '', ( #217 ) ) ;
#134 = ADVANCED_FACE ( 'NONE', ( #105 ), #44, .F. ) ;
#135 = ADVANCED_FACE ( 'NONE', ( #120 ), #53, .T. ) ;
#136 = ADVANCED_FACE ( 'NONE', ( #43 ), #45, .T. ) ;
#137 = ADVANCED_FACE ( 'NONE', ( #54 ), #72, .F. ) ;
#138 = ADVANCED_FACE ( 'NONE', ( #62 ), #311, .F. ) ;
#139 = ADVANCED_FACE ( 'NONE', ( #73 ), #322, .T. ) ;
#140 = ADVANCED_FACE ( 'NONE', ( #84 ), #81, .F. ) ;
#141 = ADVANCED_FACE ( 'NONE', ( #86 ), #85, .T. ) ;
#142 = ADVANCED_FACE ( 'NONE', ( #88 ), #77, .T. ) ;
#143 = ADVANCED_FACE ( 'NONE', ( #89 ), #79, .F. ) ;
#144 = ADVANCED_FACE ( 'NONE', ( #78 ), #64, .T. ) ;
#145 = PRODUCT_DEFINITION_CONTEXT ( 'detailed design', #218, 'design' ) ;
#146 = PRODUCT_DEFINITION_SHAPE ( 'NONE', 'NONE',  #258 ) ;
#147 = DIRECTION ( 'NONE',  ( 1.000000000000000000, 0.0000000000000000000, 0.0000000000000000000 ) ) ;
#148 = CARTESIAN_POINT ( 'NONE',  ( 1.121913038414668300, -3.525806451612903700, 4.999999999999997300 ) ) ;
#149 = DIRECTION ( 'NONE',  ( -0.0000000000000000000, -0.0000000000000000000, -1.000000000000000000 ) ) ;
#150 = DIRECTION ( 'NONE',  ( 0.0000000000000000000, 0.0000000000000000000, 1.000000000000000000 ) ) ;
#151 = DIRECTION ( 'NONE',  ( 1.000000000000000000, 0.0000000000000000000, 0.0000000000000000000 ) ) ;
#152 = DIRECTION ( 'NONE',  ( 0.0000000000000000000, 0.0000000000000000000, 1.000000000000000000 ) ) ;
#153 = DIRECTION ( 'NONE',  ( 1.000000000000000000, 0.0000000000000000000, 0.0000000000000000000 ) ) ;
#154 = DIRECTION ( 'NONE',  ( -0.0000000000000000000, -0.0000000000000000000, -1.000000000000000000 ) ) ;
#155 = DIRECTION ( 'NONE',  ( 1.000000000000000000, -1.626303258728253700E-015, 0.0000000000000000000 ) ) ;
#156 = CARTESIAN_POINT ( 'NONE',  ( -3.129629629629627500, 3.099999999999998300, 4.999999999999997300 ) ) ;
#157 = CARTESIAN_POINT ( 'NONE',  ( 0.3739710128048889200, 3.241935483870968000, -14.21954445729288500 ) ) ;
#158 = DIRECTION ( 'NONE',  ( 0.0000000000000000000, 0.0000000000000000000, 1.000000000000000000 ) ) ;
#159 = CARTESIAN_POINT ( 'NONE',  ( 1.121913038414668300, 3.525806451612903700, -4.999999999999997300 ) ) ;
#160 = CARTESIAN_POINT ( 'NONE',  ( 1.121913038414668300, -3.525806451612903700, -4.999999999999997300 ) ) ;
#161 = DIRECTION ( 'NONE',  ( 0.0000000000000000000, 0.0000000000000000000, 1.000000000000000000 ) ) ;
#162 = DIRECTION ( 'NONE',  ( 1.000000000000000000, 0.0000000000000000000, 0.0000000000000000000 ) ) ;
#163 = CARTESIAN_POINT ( 'NONE',  ( -2.754911242603550500, 0.3962130177514802700, -14.21954445729288500 ) ) ;
#164 = DIRECTION ( 'NONE',  ( -0.0000000000000000000, -0.0000000000000000000, -1.000000000000000000 ) ) ;
#165 = DIRECTION ( 'NONE',  ( 1.000000000000000000, 0.0000000000000000000, 0.0000000000000000000 ) ) ;
#166 = DIRECTION ( 'NONE',  ( 0.0000000000000000000, 0.0000000000000000000, 1.000000000000000000 ) ) ;
#167 = DIRECTION ( 'NONE',  ( 1.000000000000000000, 0.0000000000000000000, 0.0000000000000000000 ) ) ;
#168 = CARTESIAN_POINT ( 'NONE',  ( 0.8793372463250100900, -2.763469921534436500, -14.21954445729288500 ) ) ;
#169 = DIRECTION ( 'NONE',  ( 0.0000000000000000000, 0.0000000000000000000, 1.000000000000000000 ) ) ;
#170 = CARTESIAN_POINT ( 'NONE',  ( 2.899999999999999000, 0.0000000000000000000, -14.21954445729288500 ) ) ;
#171 = DIRECTION ( 'NONE',  ( 0.0000000000000000000, 0.0000000000000000000, 1.000000000000000000 ) ) ;
#172 = CARTESIAN_POINT ( 'NONE',  ( -0.4000000000000010200, -3.099999999999998300, -14.21954445729288500 ) ) ;
#173 = DIRECTION ( 'NONE',  ( 0.0000000000000000000, 0.0000000000000000000, 1.000000000000000000 ) ) ;
#174 = CARTESIAN_POINT ( 'NONE',  ( 1.121913038414668300, 3.525806451612903700, 4.999999999999997300 ) ) ;
#175 = DIRECTION ( 'NONE',  ( 0.0000000000000000000, 0.0000000000000000000, 1.000000000000000000 ) ) ;
#176 = CARTESIAN_POINT ( 'NONE',  ( -3.129629629629627500, -3.099999999999998300, 4.999999999999997300 ) ) ;
#177 = CARTESIAN_POINT ( 'NONE',  ( -3.129629629629627500, 3.099999999999998300, -4.999999999999997300 ) ) ;
#178 = DIRECTION ( 'NONE',  ( -0.0000000000000000000, -0.0000000000000000000, -1.000000000000000000 ) ) ;
#179 = DIRECTION ( 'NONE',  ( 1.000000000000000000, 0.0000000000000000000, 0.0000000000000000000 ) ) ;
#180 = CARTESIAN_POINT ( 'NONE',  ( 2.899999999999999000, 0.0000000000000000000, 4.999999999999997300 ) ) ;
#181 = DIRECTION ( 'NONE',  ( -0.0000000000000000000, -0.0000000000000000000, -1.000000000000000000 ) ) ;
#182 = DIRECTION ( 'NONE',  ( 1.000000000000000000, 1.626303258728252700E-015, 0.0000000000000000000 ) ) ;
#183 = CARTESIAN_POINT ( 'NONE',  ( 0.8793372463250100900, -2.763469921534436500, 4.999999999999997300 ) ) ;
#184 = CARTESIAN_POINT ( 'NONE',  ( -2.754911242603550500, 0.3962130177514802700, 4.999999999999997300 ) ) ;
#185 = DIRECTION ( 'NONE',  ( 0.0000000000000000000, 0.0000000000000000000, 1.000000000000000000 ) ) ;
#186 = DIRECTION ( 'NONE',  ( 1.000000000000000000, 0.0000000000000000000, 0.0000000000000000000 ) ) ;
#187 = CARTESIAN_POINT ( 'NONE',  ( 0.3739710128048887000, 3.241935483870968000, -4.999999999999997300 ) ) ;
#188 = CARTESIAN_POINT ( 'NONE',  ( 0.3739710128048889200, 3.241935483870968000, 4.999999999999997300 ) ) ;
#189 = CARTESIAN_POINT ( 'NONE',  ( 0.8793372463250096500, 2.763469921534436000, -4.999999999999997300 ) ) ;
#190 = CARTESIAN_POINT ( 'NONE',  ( -0.4000000000000010200, 3.099999999999999600, 4.999999999999997300 ) ) ;
#191 = CARTESIAN_POINT ( 'NONE',  ( -0.4000000000000010200, -3.099999999999998300, 4.999999999999997300 ) ) ;
#192 = CARTESIAN_POINT ( 'NONE',  ( -0.4000000000000010200, -3.099999999999998300, -4.999999999999997300 ) ) ;
#193 = CARTESIAN_POINT ( 'NONE',  ( 0.3739710128048895400, -3.241935483870968000, 4.999999999999997300 ) ) ;
#194 = CARTESIAN_POINT ( 'NONE',  ( 0.3739710128048895400, -3.241935483870968000, -4.999999999999997300 ) ) ;
#195 = CARTESIAN_POINT ( 'NONE',  ( -0.4000000000000010200, 3.099999999999999600, -4.999999999999997300 ) ) ;
#196 = CARTESIAN_POINT ( 'NONE',  ( -2.754911242603549600, -0.3962130177514802700, -4.999999999999997300 ) ) ;
#197 = CARTESIAN_POINT ( 'NONE',  ( -2.754911242603549600, -0.3962130177514802700, 4.999999999999997300 ) ) ;
#198 = CARTESIAN_POINT ( 'NONE',  ( 2.899999999999999000, 0.0000000000000000000, -4.999999999999997300 ) ) ;
#199 = CARTESIAN_POINT ( 'NONE',  ( 0.8793372463250100900, -2.763469921534436500, -4.999999999999997300 ) ) ;
#200 = CARTESIAN_POINT ( 'NONE',  ( -2.754911242603550500, 0.3962130177514802700, -4.999999999999997300 ) ) ;
#201 = CARTESIAN_POINT ( 'NONE',  ( 0.8793372463250096500, 2.763469921534436000, 4.999999999999997300 ) ) ;
#202 =( LENGTH_UNIT ( ) NAMED_UNIT ( * ) SI_UNIT ( .MILLI., .METRE. ) );
#203 =( NAMED_UNIT ( * ) PLANE_ANGLE_UNIT ( ) SI_UNIT ( $, .RADIAN. ) );
#204 =( NAMED_UNIT ( * ) SI_UNIT ( $, .STERADIAN. ) SOLID_ANGLE_UNIT ( ) );
#205 = FILL_AREA_STYLE_COLOUR ( '', #97 ) ;
#206 = FILL_AREA_STYLE ('',( #205 ) ) ;
#207 = SURFACE_SIDE_STYLE ('',( #101 ) ) ;
#208 = SURFACE_STYLE_USAGE ( .BOTH. , #207 ) ;
#209 =( LENGTH_UNIT ( ) NAMED_UNIT ( * ) SI_UNIT ( .MILLI., .METRE. ) );
#210 =( NAMED_UNIT ( * ) PLANE_ANGLE_UNIT ( ) SI_UNIT ( $, .RADIAN. ) );
#211 =( NAMED_UNIT ( * ) SI_UNIT ( $, .STERADIAN. ) SOLID_ANGLE_UNIT ( ) );
#212 = CARTESIAN_POINT ( 'NONE',  ( 0.0000000000000000000, 0.0000000000000000000, 0.0000000000000000000 ) ) ;
#213 = DIRECTION ( 'NONE',  ( 0.0000000000000000000, 0.0000000000000000000, 1.000000000000000000 ) ) ;
#214 = DIRECTION ( 'NONE',  ( 1.000000000000000000, 0.0000000000000000000, 0.0000000000000000000 ) ) ;
#215 = APPLICATION_CONTEXT ( 'automotive_design' ) ;
#216 = APPLICATION_PROTOCOL_DEFINITION ( 'draft international standard', 'automotive_design', 1998, #215 ) ;
#217 = PRODUCT_CONTEXT ( 'NONE', #215, 'mechanical' ) ;
#218 = APPLICATION_CONTEXT ( 'automotive_design' ) ;
#219 = APPLICATION_PROTOCOL_DEFINITION ( 'draft international standard', 'automotive_design', 1998, #218 ) ;
#220 = EDGE_CURVE ( 'NONE', #327, #315, #80, .T. ) ;
#221 = AXIS2_PLACEMENT_3D ( 'NONE', #303, #306, #305 ) ;
#222 = AXIS2_PLACEMENT_3D ( 'NONE', #314, #317, #301 ) ;
#223 = EDGE_CURVE ( 'NONE', #326, #325, #70, .T. ) ;
#224 = AXIS2_PLACEMENT_3D ( 'NONE', #358, #360, #361 ) ;
#225 = AXIS2_PLACEMENT_3D ( 'NONE', #160, #166, #167 ) ;
#226 = STYLED_ITEM ( 'NONE', ( #98 ), #267 ) ;
#227 = AXIS2_PLACEMENT_3D ( 'NONE', #382, #149, #147 ) ;
#228 = AXIS2_PLACEMENT_3D ( 'NONE', #375, #377, #378 ) ;
#229 = AXIS2_PLACEMENT_3D ( 'NONE', #261, #152, #153 ) ;
#230 = AXIS2_PLACEMENT_3D ( 'NONE', #367, #368, #369 ) ;
#231 = AXIS2_PLACEMENT_3D ( 'NONE', #313, #307, #308 ) ;
#232 = AXIS2_PLACEMENT_3D ( 'NONE', #385, #150, #151 ) ;
#233 = AXIS2_PLACEMENT_3D ( 'NONE', #334, #338, #300 ) ;
#234 = STYLED_ITEM ( 'NONE', ( #74 ), #264 ) ;
#235 = AXIS2_PLACEMENT_3D ( 'NONE', #148, #154, #155 ) ;
#236 = AXIS2_PLACEMENT_3D ( 'NONE', #159, #161, #162 ) ;
#237 = AXIS2_PLACEMENT_3D ( 'NONE', #340, #339, #337 ) ;
#238 = AXIS2_PLACEMENT_3D ( 'NONE', #295, #298, #294 ) ;
#239 = AXIS2_PLACEMENT_3D ( 'NONE', #177, #185, #186 ) ;
#240 = AXIS2_PLACEMENT_3D ( 'NONE', #372, #380, #381 ) ;
#241 = PRESENTATION_LAYER_ASSIGNMENT (  '', '', ( #234 ) ) ;
#242 = AXIS2_PLACEMENT_3D ( 'NONE', #346, #345, #344 ) ;
#243 = AXIS2_PLACEMENT_3D ( 'NONE', #319, #320, #321 ) ;
#244 = AXIS2_PLACEMENT_3D ( 'NONE', #343, #342, #341 ) ;
#245 = MECHANICAL_DESIGN_GEOMETRIC_PRESENTATION_REPRESENTATION (  '', ( #226 ), #117 ) ;
#246 = MECHANICAL_DESIGN_GEOMETRIC_PRESENTATION_REPRESENTATION (  '', ( #234 ), #65 ) ;
#247 = AXIS2_PLACEMENT_3D ( 'NONE', #362, #363, #364 ) ;
#248 = PRESENTATION_LAYER_ASSIGNMENT (  '', '', ( #226 ) ) ;
#249 = AXIS2_PLACEMENT_3D ( 'NONE', #156, #164, #165 ) ;
#250 = AXIS2_PLACEMENT_3D ( 'NONE', #174, #181, #182 ) ;
#251 = AXIS2_PLACEMENT_3D ( 'NONE', #379, #263, #262 ) ;
#252 = AXIS2_PLACEMENT_3D ( 'NONE', #376, #383, #384 ) ;
#253 = AXIS2_PLACEMENT_3D ( 'NONE', #365, #370, #371 ) ;
#254 = AXIS2_PLACEMENT_3D ( 'NONE', #176, #178, #179 ) ;
#255 = AXIS2_PLACEMENT_3D ( 'NONE', #304, #310, #309 ) ;
#256 = AXIS2_PLACEMENT_3D ( 'NONE', #332, #333, #318 ) ;
#257 = AXIS2_PLACEMENT_3D ( 'NONE', #212, #213, #214 ) ;
#258 = PRODUCT_DEFINITION ( 'UNKNOWN', '', #259, #145 ) ;
#259 = PRODUCT_DEFINITION_FORMATION_WITH_SPECIFIED_SOURCE ( 'ANY', '', #133, .NOT_KNOWN. ) ;
#260 = PRODUCT_RELATED_PRODUCT_CATEGORY ( 'part', '', ( #133 ) ) ;
#261 = CARTESIAN_POINT ( 'NONE',  ( 0.0000000000000000000, 0.0000000000000000000, 4.999999999999997300 ) ) ;
#262 = DIRECTION ( 'NONE',  ( 1.000000000000000000, 1.776356839400250500E-015, 0.0000000000000000000 ) ) ;
#263 = DIRECTION ( 'NONE',  ( -0.0000000000000000000, -0.0000000000000000000, -1.000000000000000000 ) ) ;
#264 = MANIFOLD_SOLID_BREP ( 'Body', #9 ) ;
#265 = UNCERTAINTY_MEASURE_WITH_UNIT (LENGTH_MEASURE( 1.000000000000000100E-005 ), #355, 'distance_accuracy_value', 'NONE');
#266 = UNCERTAINTY_MEASURE_WITH_UNIT (LENGTH_MEASURE( 1.000000000000000100E-005 ), #202, 'distance_accuracy_value', 'NONE');
#267 = ADVANCED_BREP_SHAPE_REPRESENTATION ( '437019_Industrilas', ( #264, #257 ), #116 ) ;
#268 = UNCERTAINTY_MEASURE_WITH_UNIT (LENGTH_MEASURE( 1.000000000000000100E-005 ), #209, 'distance_accuracy_value', 'NONE');
#269 = EDGE_CURVE ( 'NONE', #323, #325, #29, .T. ) ;
#270 = EDGE_CURVE ( 'NONE', #326, #324, #31, .T. ) ;
#271 = EDGE_CURVE ( 'NONE', #312, #336, #30, .T. ) ;
#272 = EDGE_CURVE ( 'NONE', #297, #329, #15, .T. ) ;
#273 = EDGE_CURVE ( 'NONE', #327, #299, #125, .T. ) ;
#274 = EDGE_CURVE ( 'NONE', #328, #329, #32, .T. ) ;
#275 = EDGE_CURVE ( 'NONE', #324, #328, #27, .T. ) ;
#276 = EDGE_CURVE ( 'NONE', #330, #331, #34, .T. ) ;
#277 = EDGE_CURVE ( 'NONE', #296, #316, #35, .T. ) ;
#278 = EDGE_CURVE ( 'NONE', #328, #335, #37, .T. ) ;
#279 = EDGE_CURVE ( 'NONE', #312, #330, #39, .T. ) ;
#280 = EDGE_CURVE ( 'NONE', #302, #315, #40, .T. ) ;
#281 = EDGE_CURVE ( 'NONE', #316, #336, #33, .T. ) ;
#282 = EDGE_CURVE ( 'NONE', #325, #296, #22, .T. ) ;
#283 = EDGE_CURVE ( 'NONE', #299, #302, #121, .T. ) ;
#284 = EDGE_CURVE ( 'NONE', #299, #312, #19, .T. ) ;
#285 = EDGE_CURVE ( 'NONE', #315, #297, #103, .T. ) ;
#286 = EDGE_CURVE ( 'NONE', #331, #326, #18, .T. ) ;
#287 = EDGE_CURVE ( 'NONE', #331, #296, #23, .T. ) ;
#288 = EDGE_CURVE ( 'NONE', #335, #297, #21, .T. ) ;
#289 = EDGE_CURVE ( 'NONE', #330, #316, #38, .T. ) ;
#290 = EDGE_CURVE ( 'NONE', #324, #323, #17, .T. ) ;
#291 = EDGE_CURVE ( 'NONE', #329, #323, #36, .T. ) ;
#292 = EDGE_CURVE ( 'NONE', #336, #302, #6, .T. ) ;
#293 = EDGE_CURVE ( 'NONE', #335, #327, #102, .T. ) ;
#294 = DIRECTION ( 'NONE',  ( 1.000000000000000000, 0.0000000000000000000, 0.0000000000000000000 ) ) ;
#295 = CARTESIAN_POINT ( 'NONE',  ( 1.121913038414668300, -3.525806451612903700, -14.21954445729288500 ) ) ;
#296 = VERTEX_POINT ( 'NONE', #183 ) ;
#297 = VERTEX_POINT ( 'NONE', #184 ) ;
#298 = DIRECTION ( 'NONE',  ( 0.0000000000000000000, 0.0000000000000000000, 1.000000000000000000 ) ) ;
#299 = VERTEX_POINT ( 'NONE', #187 ) ;
#300 = DIRECTION ( 'NONE',  ( 1.000000000000000000, 0.0000000000000000000, 0.0000000000000000000 ) ) ;
#301 = DIRECTION ( 'NONE',  ( 1.000000000000000000, 0.0000000000000000000, 0.0000000000000000000 ) ) ;
#302 = VERTEX_POINT ( 'NONE', #188 ) ;
#303 = CARTESIAN_POINT ( 'NONE',  ( 0.0000000000000000000, 0.0000000000000000000, 4.999999999999997300 ) ) ;
#304 = CARTESIAN_POINT ( 'NONE',  ( -3.129629629629627500, -3.099999999999998300, -14.21954445729288500 ) ) ;
#305 = DIRECTION ( 'NONE',  ( 1.000000000000000000, 0.0000000000000000000, -0.0000000000000000000 ) ) ;
#306 = DIRECTION ( 'NONE',  ( 0.0000000000000000000, 0.0000000000000000000, 1.000000000000000000 ) ) ;
#307 = DIRECTION ( 'NONE',  ( 0.0000000000000000000, 0.0000000000000000000, 1.000000000000000000 ) ) ;
#308 = DIRECTION ( 'NONE',  ( 1.000000000000000000, 0.0000000000000000000, -0.0000000000000000000 ) ) ;
#309 = DIRECTION ( 'NONE',  ( 1.000000000000000000, 0.0000000000000000000, 0.0000000000000000000 ) ) ;
#310 = DIRECTION ( 'NONE',  ( 0.0000000000000000000, 0.0000000000000000000, 1.000000000000000000 ) ) ;
#311 = PLANE ( 'NONE',  #231 ) ;
#312 = VERTEX_POINT ( 'NONE', #189 ) ;
#313 = CARTESIAN_POINT ( 'NONE',  ( 0.0000000000000000000, 0.0000000000000000000, -4.999999999999997300 ) ) ;
#314 = CARTESIAN_POINT ( 'NONE',  ( 1.121913038414668300, 3.525806451612903700, -14.21954445729288500 ) ) ;
#315 = VERTEX_POINT ( 'NONE', #190 ) ;
#316 = VERTEX_POINT ( 'NONE', #180 ) ;
#317 = DIRECTION ( 'NONE',  ( 0.0000000000000000000, 0.0000000000000000000, 1.000000000000000000 ) ) ;
#318 = DIRECTION ( 'NONE',  ( 1.000000000000000000, 0.0000000000000000000, 0.0000000000000000000 ) ) ;
#319 = CARTESIAN_POINT ( 'NONE',  ( 0.0000000000000000000, 0.0000000000000000000, -14.21954445729288500 ) ) ;
#320 = DIRECTION ( 'NONE',  ( 0.0000000000000000000, 0.0000000000000000000, 1.000000000000000000 ) ) ;
#321 = DIRECTION ( 'NONE',  ( 1.000000000000000000, 0.0000000000000000000, 0.0000000000000000000 ) ) ;
#322 = PLANE ( 'NONE',  #221 ) ;
#323 = VERTEX_POINT ( 'NONE', #191 ) ;
#324 = VERTEX_POINT ( 'NONE', #192 ) ;
#325 = VERTEX_POINT ( 'NONE', #193 ) ;
#326 = VERTEX_POINT ( 'NONE', #194 ) ;
#327 = VERTEX_POINT ( 'NONE', #195 ) ;
#328 = VERTEX_POINT ( 'NONE', #196 ) ;
#329 = VERTEX_POINT ( 'NONE', #197 ) ;
#330 = VERTEX_POINT ( 'NONE', #198 ) ;
#331 = VERTEX_POINT ( 'NONE', #199 ) ;
#332 = CARTESIAN_POINT ( 'NONE',  ( 0.0000000000000000000, 3.099999999999999600, -14.21954445729288500 ) ) ;
#333 = DIRECTION ( 'NONE',  ( 0.0000000000000000000, 0.0000000000000000000, 1.000000000000000000 ) ) ;
#334 = CARTESIAN_POINT ( 'NONE',  ( 0.0000000000000000000, -3.099999999999999600, -14.21954445729288500 ) ) ;
#335 = VERTEX_POINT ( 'NONE', #200 ) ;
#336 = VERTEX_POINT ( 'NONE', #201 ) ;
#337 = DIRECTION ( 'NONE',  ( 1.000000000000000000, 0.0000000000000000000, 0.0000000000000000000 ) ) ;
#338 = DIRECTION ( 'NONE',  ( 0.0000000000000000000, 0.0000000000000000000, 1.000000000000000000 ) ) ;
#339 = DIRECTION ( 'NONE',  ( 0.0000000000000000000, 0.0000000000000000000, 1.000000000000000000 ) ) ;
#340 = CARTESIAN_POINT ( 'NONE',  ( 0.0000000000000000000, 0.0000000000000000000, -14.21954445729288500 ) ) ;
#341 = DIRECTION ( 'NONE',  ( 1.000000000000000000, 0.0000000000000000000, 0.0000000000000000000 ) ) ;
#342 = DIRECTION ( 'NONE',  ( 0.0000000000000000000, 0.0000000000000000000, 1.000000000000000000 ) ) ;
#343 = CARTESIAN_POINT ( 'NONE',  ( -3.129629629629627500, 3.099999999999998300, -14.21954445729288500 ) ) ;
#344 = DIRECTION ( 'NONE',  ( 1.000000000000000000, 0.0000000000000000000, 0.0000000000000000000 ) ) ;
#345 = DIRECTION ( 'NONE',  ( 0.0000000000000000000, 0.0000000000000000000, 1.000000000000000000 ) ) ;
#346 = CARTESIAN_POINT ( 'NONE',  ( -2.699999999999999300, 0.0000000000000000000, -14.21954445729288500 ) ) ;
#347 = FILL_AREA_STYLE ('',( #351 ) ) ;
#348 = CARTESIAN_POINT ( 'NONE',  ( -0.4000000000000010200, 3.099999999999999600, -14.21954445729288500 ) ) ;
#349 = DIRECTION ( 'NONE',  ( 0.0000000000000000000, 0.0000000000000000000, 1.000000000000000000 ) ) ;
#350 = CARTESIAN_POINT ( 'NONE',  ( 0.3739710128048895400, -3.241935483870968000, -14.21954445729288500 ) ) ;
#351 = FILL_AREA_STYLE_COLOUR ( '', #90 ) ;
#352 = DIRECTION ( 'NONE',  ( 0.0000000000000000000, 0.0000000000000000000, 1.000000000000000000 ) ) ;
#353 = SURFACE_SIDE_STYLE ('',( #63 ) ) ;
#354 = SURFACE_STYLE_USAGE ( .BOTH. , #353 ) ;
#355 =( LENGTH_UNIT ( ) NAMED_UNIT ( * ) SI_UNIT ( .MILLI., .METRE. ) );
#356 =( NAMED_UNIT ( * ) PLANE_ANGLE_UNIT ( ) SI_UNIT ( $, .RADIAN. ) );
#357 =( NAMED_UNIT ( * ) SI_UNIT ( $, .STERADIAN. ) SOLID_ANGLE_UNIT ( ) );
#358 = CARTESIAN_POINT ( 'NONE',  ( 0.0000000000000000000, -3.099999999999999600, 4.999999999999997300 ) ) ;
#359 = CARTESIAN_POINT ( 'NONE',  ( 0.8793372463250096500, 2.763469921534436000, -14.21954445729288500 ) ) ;
#360 = DIRECTION ( 'NONE',  ( 0.0000000000000000000, 0.0000000000000000000, 1.000000000000000000 ) ) ;
#361 = DIRECTION ( 'NONE',  ( 1.000000000000000000, 0.0000000000000000000, 0.0000000000000000000 ) ) ;
#362 = CARTESIAN_POINT ( 'NONE',  ( 0.0000000000000000000, -3.099999999999999600, -4.999999999999997300 ) ) ;
#363 = DIRECTION ( 'NONE',  ( -0.0000000000000000000, -0.0000000000000000000, -1.000000000000000000 ) ) ;
#364 = DIRECTION ( 'NONE',  ( 1.000000000000000000, 0.0000000000000000000, 0.0000000000000000000 ) ) ;
#365 = CARTESIAN_POINT ( 'NONE',  ( 0.0000000000000000000, 3.099999999999999600, -4.999999999999997300 ) ) ;
#366 = DIRECTION ( 'NONE',  ( 0.0000000000000000000, 0.0000000000000000000, 1.000000000000000000 ) ) ;
#367 = CARTESIAN_POINT ( 'NONE',  ( -2.699999999999999300, 0.0000000000000000000, 4.999999999999997300 ) ) ;
#368 = DIRECTION ( 'NONE',  ( 0.0000000000000000000, 0.0000000000000000000, 1.000000000000000000 ) ) ;
#369 = DIRECTION ( 'NONE',  ( 1.000000000000000000, 0.0000000000000000000, 0.0000000000000000000 ) ) ;
#370 = DIRECTION ( 'NONE',  ( -0.0000000000000000000, -0.0000000000000000000, -1.000000000000000000 ) ) ;
#371 = DIRECTION ( 'NONE',  ( 1.000000000000000000, 0.0000000000000000000, 0.0000000000000000000 ) ) ;
#372 = CARTESIAN_POINT ( 'NONE',  ( 0.0000000000000000000, 0.0000000000000000000, -4.999999999999997300 ) ) ;
#373 = CARTESIAN_POINT ( 'NONE',  ( -2.754911242603549600, -0.3962130177514802700, -14.21954445729288500 ) ) ;
#374 = DIRECTION ( 'NONE',  ( 0.0000000000000000000, 0.0000000000000000000, 1.000000000000000000 ) ) ;
#375 = CARTESIAN_POINT ( 'NONE',  ( -3.129629629629627500, -3.099999999999998300, -4.999999999999997300 ) ) ;
#376 = CARTESIAN_POINT ( 'NONE',  ( 0.0000000000000000000, 0.0000000000000000000, 4.999999999999997300 ) ) ;
#377 = DIRECTION ( 'NONE',  ( 0.0000000000000000000, 0.0000000000000000000, 1.000000000000000000 ) ) ;
#378 = DIRECTION ( 'NONE',  ( 1.000000000000000000, 0.0000000000000000000, 0.0000000000000000000 ) ) ;
#379 = CARTESIAN_POINT ( 'NONE',  ( -2.699999999999999300, 0.0000000000000000000, -4.999999999999997300 ) ) ;
#380 = DIRECTION ( 'NONE',  ( -0.0000000000000000000, -0.0000000000000000000, -1.000000000000000000 ) ) ;
#381 = DIRECTION ( 'NONE',  ( 1.000000000000000000, 0.0000000000000000000, 0.0000000000000000000 ) ) ;
#382 = CARTESIAN_POINT ( 'NONE',  ( 0.0000000000000000000, 0.0000000000000000000, -4.999999999999997300 ) ) ;
#383 = DIRECTION ( 'NONE',  ( 0.0000000000000000000, 0.0000000000000000000, 1.000000000000000000 ) ) ;
#384 = DIRECTION ( 'NONE',  ( 1.000000000000000000, 0.0000000000000000000, 0.0000000000000000000 ) ) ;
#385 = CARTESIAN_POINT ( 'NONE',  ( 0.0000000000000000000, 3.099999999999999600, 4.999999999999997300 ) ) ;
ENDSEC;
END-ISO-10303-21;
